Posts Tagged ‘Neil Young’

Neil Young – Heart of Gold
Key: G  Time: 4/4
Strum pattern: DU_D_DU_D
Riff:
   C  B  A  G
e-----------3----
B-----------0----
G-----------0----
D-----------0----
A--3--2--0--2----
E-----------3----
Intro: Em7  Em7  D  Em  (x2)
          Em  Em  Em  Em  Em  Em  D       D   Em
  /   /   /   /   /   /   /   /   /   /   /   /   /   /   /   /
e --------0---0---0---0---0---0-|-2-------2---0-----------------|
B --------0---0---0---0---0---0-|-3-------3---0-----------------|
G --------0---0---0---0---0---0-|-2-------2---0-----------------|
D --------2---2---2---2---2---2-|-0-------0---2-----------0-----|
A --------2---2---2---2---2---2-|-------------2-------0h2----2--|
E 0-------0---0---0---0---0---0-|-------------0-----------------|
Harmonica solo: 
Em  C  D  G   (x3)
Em7  Em7  D  Em 

Verse 1:
Em          C   D         G 
I want to live, I want to give
Em          C           D        G 
I've been a miner for a heart of gold
Em         C           D       G 
It's these expressions I never give
 (more…)
Advertisements